Riff 3 Acoustic

(/) Slide Up  (\) Slide Down  (h) Hammer On  (p) Pull Off  (b) Bend (r) Release (v) Vibrato


E|-----------------
B|-----------2-----
G|--------4--------
D|-----4-----------
A|--2--------------
E|-----------------



E|--------------2--------------2-----
B|-----------3--------------2--------
G|--------4--------------4-----------
D|-----4--------------4--------------
A|--2--------------2--------------2--
E|-----------------------------------



E|--------------------
B|--3--2--3--5--3--2--
G|--------------------
D|--------------------
A|--------------------
E|--------------------
http://www.guitartabcreator.com
Guitar Tab Creator is intended to store guitar tab created through the tool. It currently does not support in-line text editing. Any text you place in here will be lost. If you need to comment on your tab, please use the "Tab Notes" section located below.