vulva

(/) Slide Up  (\) Slide Down  (h) Hammer On  (p) Pull Off  (b) Bend (r) Release (v) Vibrato


E|--------------------
B|--5----1----5----1--
G|--6----2----6----2--
D|--7----3----7----3--
A|--------------------
E|--------------------



E|----------------------
B|--8-----5----8-----5--
G|--------6----------6--
D|--9-----7----9-----7--
A|--10---------10-------
E|----------------------
http://www.guitartabcreator.com
Guitar Tab Creator is intended to store guitar tab created through the tool. It currently does not support in-line text editing. Any text you place in here will be lost. If you need to comment on your tab, please use the "Tab Notes" section located below.