paolo

(/) Slide Up  (\) Slide Down  (h) Hammer On  (p) Pull Off  (b) Bend (r) Release (v) Vibrato


E|--------------------------------------------------------------------
B|--------------------------------------------------------------------
G|--------------------------------------------------------------------
D|-----5-----------------------------5--------------------------------
A|--7-----7--7--7--7--7--7--7--7--7-----7--5--5--5--5--2--2--2--2--2--
E|--------------------------------------------------------------------



E|--------------------------------------------------------------------
B|--------------------------------------------------------------------
G|--------------------------------------------------------------------
D|-----5-----------------------------5--------------------------------
A|--7-----7--7--7--7--7--7--7--7--7-----7--5--5--5--5--2--2--2--2--2--
E|--------------------------------------------------------------------



E|-----------
B|-----2-----
G|--1--2--1--
D|--2--2--2--
A|--2-----2--
E|-----------
http://www.guitartabcreator.com
Guitar Tab Creator is intended to store guitar tab created through the tool. It currently does not support in-line text editing. Any text you place in here will be lost. If you need to comment on your tab, please use the "Tab Notes" section located below.