merlotte

(/) Slide Up  (\) Slide Down  (h) Hammer On  (p) Pull Off  (b) Bend (r) Release (v) Vibrato
E|----------------0--------
B|--3----2--3--3-----3--2--
G|--2----2--2--------------
D|--2----2--2--------------
A|-------------------------
E|-------------------------



E|-------------
B|-------------
G|--1----------
D|--2----------
A|--2----------
E|-------------



E|--2--3-----2-----2-----
B|--3-----2-----------2--
G|--2-----2-----1-----2--
D|--------2-----2-----2--
A|--------------2--------
E|-----------------------



E|--2--3-----2--------
B|--3-----2-----------
G|--2-----2-----1--1--
D|--------2-----2--2--
A|--------------2--2--
E|--------------------
http://www.guitartabcreator.com
Guitar Tab Creator is intended to store guitar tab created through the tool. It currently does not support in-line text editing. Any text you place in here will be lost. If you need to comment on your tab, please use the "Tab Notes" section located below.