it t

(/) Slide Up  (\) Slide Down  (h) Hammer On  (p) Pull Off  (b) Bend (r) Release (v) Vibrato

E|--10----------------10----------------10------------------10--------------
B|------12--10--12--------12--10--12--------12--10--12----------12--10--12--
G|--------------------------------------------------------------------------
D|--------------------------------------------------------------------------
A|--------------------------------------------------------------------------
E|--------------------------------------------------------------------------



E|--2--2--------2--2--4--------
B|--3--3--------3--3--5--------
G|--2--2--1--1--2--2--4--1--1--
D|--------2--2-----------2--2--
A|--------2--2-----------2--2--
E|-----------------------------
http://www.guitartabcreator.com
Guitar Tab Creator is intended to store guitar tab created through the tool. It currently does not support in-line text editing. Any text you place in here will be lost. If you need to comment on your tab, please use the "Tab Notes" section located below.