fowini

(/) Slide Up  (\) Slide Down  (h) Hammer On  (p) Pull Off  (b) Bend (r) Release (v) Vibrato
E|----------------------------------------------------------
B|-----0-----0-----0-----0------0-------0-------0-------0---
G|-----0-----0-----0-----0------0-------0-------0-------0---
D|-----9-----9-----9-----9------12------12------12------12--
A|--7-----7-----7-----7-----10------10------10------10------
E|----------------------------------------------------------



E|--------------------------------------------------
B|-----0-----0-----0-----0-----0-----0-----0-----0--
G|-----0-----0-----0-----0-----0-----0-----0-----0--
D|-----5-----5-----5-----5-----5-----5-----5-----5--
A|--3-----3-----3-----3-----3-----3-----3-----3-----
E|--------------------------------------------------



E|------------------------------------------------------------------------
B|------1--------1--------------------------1--------1--------------------
G|------2-----------------------------------2-----------------------------
D|------2--------2--------5-----------------2--------2--------5-----------
A|---------------3--------7--------5-----------------3--------7--------5--
E|---------------3-----------------3-----------------3-----------------3--



E|--------------------------------------
B|--1--1------1--1----------------------
G|--2--2------2--2----------------------
D|--2--2----------------5--5------7--7--
A|------------3--3------7--7------5--5--
E|------------3--3----------------------



E|----------------------------------------------------------------------------
B|--0--0------0--0------0--0------0--0----1--1------1--1-------------------0--
G|--0--0------0--0------0--0------0--0----2--2------2--2-------------------0--
D|--9--9------9--5------9--9------9--5----2--2------2----------------------7--
A|--7--7------7--3------7--7------7--3-----------------3------2--2------2--5--
E|------------------------------------------------------------3--3------3-----
http://www.guitartabcreator.com
Guitar Tab Creator is intended to store guitar tab created through the tool. It currently does not support in-line text editing. Any text you place in here will be lost. If you need to comment on your tab, please use the "Tab Notes" section located below.