cunf

(/) Slide Up  (\) Slide Down  (h) Hammer On  (p) Pull Off  (b) Bend (r) Release (v) Vibrato


E|--------------------------------
B|--------------------------------
G|--------------------------------
D|--------------------------------
A|-----4-----------------4--------
E|--5-----2--0--------5-----2--0--



E|--2--4--------2--4--
B|--3--5--------3--5--
G|--2--4--------2--4--
D|--------------------
A|--------------------
E|--------5--2--------



E|--------------------------------
B|--------------------------------
G|--------------------------------
D|--------------------------------
A|-----4-----5-----------4-----5--
E|--5-----2-----------5-----2-----



E|--2-----2-----4--0--4--0--4--0--5--5--5--7--5--2--------2--2--2--2--4--4--4--4-----
B|-----3-----3-----------------------------------------------------------------------
G|-----------------------------------------------------------------------------------
D|-----------------------------------------------------------------------------------
A|-----------------------------------------------------------------------------------
E|--------------------------------------------------------------------------------5--
http://www.guitartabcreator.com
Guitar Tab Creator is intended to store guitar tab created through the tool. It currently does not support in-line text editing. Any text you place in here will be lost. If you need to comment on your tab, please use the "Tab Notes" section located below.