buttrock

(/) Slide Up  (\) Slide Down  (h) Hammer On  (p) Pull Off  (b) Bend (r) Release (v) Vibrato
E|------------------------------------------------------------------------------------------------------------
B|------------------------------------------------------------------------------------------------------------
G|------------------------------------------------------------------------------------------------------------
D|------------------------------------------------------------------------------------------------------------
A|--12--12--12--12--12--7--7--7--7--8--8--8--8--7--7--7--12--12--12--12--12--7--7--7--7--8--8--8--8--7--7--5--
E|------------------------------------------------------------------------------------------------------------



E|-----------------------------------------------------------------
B|-----------------------------------------------------------------
G|--------------5--------------5--------------5-----5--7--8--7--5--
D|--7-----------5--7-----------5--7-----------5--7--5--7--8--7--5--
A|--7-----------3--7-----------3--7-----------3--7--3--5--6--5--3--
E|--5--5--5--5-----5--5--5--5-----5--5--5--5-----5-----------------



E|-------------------------------------------------------
B|-------------------------------------------------------
G|-------------------------------------------------------
D|-------------------------------------------------------
A|--12--12--12--12--12--7--7--7--7--8--8--8--8--7--7--7--
E|-------------------------------------------------------



E|-------------------------------------------------------
B|-------------------------------------------------------
G|-------------------------------------------------------
D|-------------------------------------------------------
A|--12--12--12--12--12--7--7--7--7--8--8--8--8--7--7--5--
E|-------------------------------------------------------
http://www.guitartabcreator.com
Guitar Tab Creator is intended to store guitar tab created through the tool. It currently does not support in-line text editing. Any text you place in here will be lost. If you need to comment on your tab, please use the "Tab Notes" section located below.