4/2/13

(/) Slide Up  (\) Slide Down  (h) Hammer On  (p) Pull Off  (b) Bend (r) Release (v) Vibrato

E|-----------------------------------------------------------------------------------
B|--8------8--8--8--8------6------5--------5--5--5--5------3------1------1--1--1--1--
G|--9------9--9--9--9------7------5--------5--5--5--5------4------2------2--2--2--2--
D|-----------------------------------------------------------------------------------
A|-----------------------------------------------------------------------------------
E|-----------------------------------------------------------------------------------



E|----------------
B|--3----5--------
G|--4----5--------
D|----------------
A|----------------
E|----------------



E|----------
B|--3----2--
G|--4-------
D|-------3--
A|----------
E|----------



E|--------------------------
B|--1-----1-----1-----1-----
G|-----2-----2-----2-----2--
D|--------------------------
A|--------------------------
E|--------------------------
http://www.guitartabcreator.com
Guitar Tab Creator is intended to store guitar tab created through the tool. It currently does not support in-line text editing. Any text you place in here will be lost. If you need to comment on your tab, please use the "Tab Notes" section located below.