4/13/13

(/) Slide Up  (\) Slide Down  (h) Hammer On  (p) Pull Off  (b) Bend (r) Release (v) Vibrato
E|----------------------------------------------------
B|----------------------------------------------------
G|----------------------------------------------------
D|----------------------------------------------------
A|--6--------6--6--7----4------4----2--2--4--2--4--2--
E|----------------------------------------------------



E|-----------
B|-----2-----
G|--1--2--1--
D|--1--2--2--
A|--2-----2--
E|-----------



E|-----------------------------------------------
B|-----------------------------------------------
G|--1--1--1--------------------1--1--1-----------
D|--2--2--2--------------------2--2--2-----------
A|--2--2--2--------------------2--2--2-----------
E|-----------4--2--0--0--0--0-----------4--2--0--



E|-----------------------------------------------------
B|-----------------------------------------------------
G|-----------------------------------------------------
D|-----------------------------------------------------
A|---------------------2-------------------------2-----
E|--4------4--4--4--4---------4------4--4--4--4--------
http://www.guitartabcreator.com
Guitar Tab Creator is intended to store guitar tab created through the tool. It currently does not support in-line text editing. Any text you place in here will be lost. If you need to comment on your tab, please use the "Tab Notes" section located below.