the drills beautiful apartment solo part 2

(/) Slide Up  (\) Slide Down  (h) Hammer On  (p) Pull Off  (b) Bend (r) Release (v) Vibrato

E|----------12-17-12----------------12-16-12-------
B|-------------------------------------------------
G|-14-16-17----------17-14-13-14-16----------16-14-
D|-------------------------------------------------
A|-------------------------------------------------
E|-------------------------------------------------



E|--------------10--15--10----------------------10--14--10--------------
B|----------------------------------------------------------------------
G|--12--14--15--------------15--14--11--12--14--------------12--11------
D|------------------------------------------------------------------12--
A|----------------------------------------------------------------------
E|----------------------------------------------------------------------
http://www.guitartabcreator.com
Guitar Tab Creator is intended to store guitar tab created through the tool. It currently does not support in-line text editing. Any text you place in here will be lost. If you need to comment on your tab, please use the "Tab Notes" section located below.