the drills beautiful apartment part 1

(/) Slide Up  (\) Slide Down  (h) Hammer On  (p) Pull Off  (b) Bend (r) Release (v) Vibrato


E|------------------------------------------------------------------
B|------------------------------------------------------------------
G|-------8-8-------9-9-9-9-9-9-9-9-9-9-9-9-9-9----------------------
D|-2-2---6-6---2-2-9-9-9-9-9-9-9-9-9-9-9-9-9-9--6--4-4--7-7--6-6----
A|-2-2---4-4---2-2-7-7-7-7-7-7-7-7-7-7-7-7-7-7--4--4-4--4-4--4-4----
E|-2-2---------2-2--------------------------------------------------



E|-----------------------------------------------------------------
B|-----------------------------------------------------------------
G|---------------------------------6-6-6-6-6-6-6-6-4-4-4-4-4-4-4-4-
D|-7-7-7-7-7-7-7-7-6-6-6-6-6-6-6-6-6-6-6-6-6-6-6-6-4-4-4-4-4-4-4-4-
A|-7-7-7-7-7-7-7-7-7-7-7-7-7-7-7-7-4-4-4-4-4-4-4-4-2-2-2-2-2-2-2-2-
E|-7-7-7-7-7-7-7-7-6-6-6-6-6-6-6-6---------------------------------



E|-----------------------------------------------------------------
B|-----------------------------------------------------------------
G|---------------------------------6-6-6-6-6-6-6-6-4-4-4-4-4-4-4-4-
D|-7-7-7-7-7-7-7-7-6-6-6-6-6-6-6-6-6-6-6-6-6-6-6-6-4-4-4-4-4-4-4-4-
A|-7-7-7-7-7-7-7-7-7-7-7-7-7-7-7-7-4-4-4-4-4-4-4-4-2-2-2-2-2-2-2-2-
E|-7-7-7-7-7-7-7-7-6-6-6-6-6-6-6-6---------------------------------




E|-------------------------------------------------
B|-------------------------------------------------
G|-9--9--9-9-9-------------6--6--6-6-6-------------
D|-9--9--9-9-9-9--9--9-9-9-6--6--6-6-6-7--7--7-7-7-
A|-7--7--7-7-7-9--9--9-9-9-4--4--4-4-4-7--7--7-7-7-
E|-------------9--9--9-9-9-------------7--7--7-7-7-
http://www.guitartabcreator.com
Guitar Tab Creator is intended to store guitar tab created through the tool. It currently does not support in-line text editing. Any text you place in here will be lost. If you need to comment on your tab, please use the "Tab Notes" section located below.