beautiful apartment part 4

(/) Slide Up  (\) Slide Down  (h) Hammer On  (p) Pull Off  (b) Bend (r) Release (v) Vibrato


E|--------0-----------0-----------0-----------0--
B|--------0-----------4-----------0-----------4--
G|-----------------------------------------------
D|--2--2-----2--2--2-----2--2--2-----2--2--2-----
A|--2--2-----2--2--2-----2--2--2-----2--2--2-----
E|--2--2-----2--2--2-----2--2--2-----2--2--2-----



E|----------------------------------------------------------------
B|--------------------------------------------------10--10--9--9--
G|--8--8--8--8--8--8--8--8--8--8--8--8--8--8--8--8--9---9---9--9--
D|--6--6--6--6--6--6--6--6--7--7--7--7--7--7--7--7----------------
A|--4--4--4--4--4--4--4--4--7--7--7--7--7--7--7--7----------------
E|--------------------------7--7--7--7--7--7--7--7----------------



E|------------------------------------------------------------------------------------
B|----------------------------------4-5-----------------------------------------------
G|--------------------------------4------9--9--9--9--9--9--9--9-----------------------
D|--2--2-----6--4--4--7--7--6--6---------9--9--9--9--9--9--9--9--6--4--4--7--7--6--6--
A|--2--2-----4--4--4--4--4--4--4---------7--7--7--7--7--7--7--7--4--4--4--4--4--4--4--
E|--2--2------------------------------------------------------------------------------



E|--------------------------------------------------
B|--------------------------------------------------
G|--------------------------------------------------
D|--2--2--2--2--2--2--2--2--2--2--2--2--2--2--2--2--
A|--2--2--2--2--2--2--2--2--2--2--2--2--2--2--2--2--
E|--2--2--2--2--2--2--2--2--2--2--2--2--2--2--2--2--



E|---------------------------------------------------------------------
B|---------------------------------------------------------------------
G|---------------------------------------------------------------------
D|--2---2--0--1--2--0--1--2--0--1--2--0--1--2--0--1--2--2--5--5--8--8--
A|--2---2--0--1--2--0--1--2--0--1--2--0--1--2--0--1--2--2--5--5--8--8--
E|--2---2--0--1--2--0--1--2--0--1--2--0--1--2--0--1--2--2--5--5--8--8--
http://www.guitartabcreator.com
Guitar Tab Creator is intended to store guitar tab created through the tool. It currently does not support in-line text editing. Any text you place in here will be lost. If you need to comment on your tab, please use the "Tab Notes" section located below.