RandomRiffs1

(/) Slide Up  (\) Slide Down  (h) Hammer On  (p) Pull Off  (b) Bend (r) Release (v) Vibrato

E|---------------------------------------------------------------------------
B|---------------------------------------------------------------------------
G|---------------------------------------------------------------------------
D|---------------------------------------------------------------------------
A|--------8-----------------8-----------8-----------------8---------7--5-----
E|--0--0-----7--0--0--0--0-----7--0--0-----7--0--0--0--0-----7--10--------5--



E|---------------------------
B|---------------------------
G|---------------------------
D|---------------------------
A|--8---------7--5-----------
E|-----7--10--------5--7--4--



E|--------------------------------------------------------------------------
B|--------------------------------------------------------------------4--6--
G|-----------------------------------------------------------------3--------
D|--------------------------------------------------------6--3--5-----------
A|--------------------------------------------------------------------------
E|--3--3--3--0--0--0--3--3--3--0--0--0--3--3--3--0--0--0--------------------



E|--------------------
B|--------------------
G|--------------------
D|--6--5--3-----3-----
A|-----------5-----3--
E|--------------------



E|-----------------------------------------------------------------------------
B|-----------------------------------------------------------------------------
G|-----------------------------------------------------------------------------
D|-----------------------------------------------------------------------------
A|--12--12--12--------------------------5--9--9--9--9--9--9--8--8--8--8--8--8--
E|--------------0--0--0--3--0--2--3--6-----------------------------------------



E|--------------------------------------------------------------------------------
B|--------------------------------------------------------------------------------
G|--------------------------------------------------------------------------------
D|--------------------------------------6-----------------------------------------
A|--4--4--4--------------------------3--------------------------------------------
E|-----------3--3--3--3--6--3--5--6--------7--7--7--7--7--7--8--8--8--11--11--11--



E|----------------------------------------------------
B|----------------------------------------------------
G|----------------------------------------------------
D|----------------------------------------------------
A|----------------------------------------------------
E|--0--0--0--0--12--0--0--5--0--6--0--11--0--4--3--1--
http://www.guitartabcreator.com
Guitar Tab Creator is intended to store guitar tab created through the tool. It currently does not support in-line text editing. Any text you place in here will be lost. If you need to comment on your tab, please use the "Tab Notes" section located below.