Luz de las Velas (solo)

(/) Slide Up  (\) Slide Down  (h) Hammer On  (p) Pull Off  (b) Bend (r) Release (v) Vibrato


E|-----------3-------------2-------------2-----------3-------------5----------7----
B|--0-----0-------0-----0-------0-----0-----0-----0-------0-----0-------0----------
G|-----5-------------5-------------5-----------5-------------5-------------5-------
D|---------------------------------------------------------------------------------
A|---------------------------------------------------------------------------------
E|---------------------------------------------------------------------------------



E|-----------3-------------3-------------2-------------3----------3----------5----------7--
B|--0-----0-------0-----0-------0-----0-------0-----0-------0----------0----------0--------
G|-----5-------------5-------------5-------------5-------------5----------5----------5-----
D|-----------------------------------------------------------------------------------------
A|-----------------------------------------------------------------------------------------
E|-----------------------------------------------------------------------------------------



E|----------------------------------------------------7--8--10----7--8--10----7--8--10--8--7-----------
B|----7--8--10--7--8--10--8--8/12----10--8--7--8--10------------------------------------------8--10----
G|-----------------------------------------------------------------------------------------------------
D|-----------------------------------------------------------------------------------------------------
A|-----------------------------------------------------------------------------------------------------
E|-----------------------------------------------------------------------------------------------------
http://www.guitartabcreator.com
Guitar Tab Creator is intended to store guitar tab created through the tool. It currently does not support in-line text editing. Any text you place in here will be lost. If you need to comment on your tab, please use the "Tab Notes" section located below.