Barcos de Papel (segunda parte de la estrofa)

(/) Slide Up  (\) Slide Down  (h) Hammer On  (p) Pull Off  (b) Bend (r) Release (v) Vibrato


E|----------------------------------------------------------------
B|----------------------------------------------------------------
G|-----------------------------------------------------5-----4----
D|----4--5--5/7----5--4------------4--5--5/7-----7----------------
A|-----------------------7--5-----------------7-----7-----7-------
E|----------------------------------------------------------------



E|--------------------------------------------------8-------------
B|----7--8--8/10----8--7--5-------------7--8--10----10------------
G|---------------------------7--4-------------------9-------------
D|---------------------------------7------------------------------
A|----------------------------------------------------------------
E|----------------------------------------------------------------
http://www.guitartabcreator.com
Guitar Tab Creator is intended to store guitar tab created through the tool. It currently does not support in-line text editing. Any text you place in here will be lost. If you need to comment on your tab, please use the "Tab Notes" section located below.