The Fall

(/) Slide Up  (\) Slide Down  (h) Hammer On  (p) Pull Off  (b) Bend (r) Release (v) Vibrato


E|--------------------------------------------------------------------------------
B|--------------------------------------------------------------------------------
G|--------------0--------0--------0--------------------0--------0--------0--------
D|--------4--------4--------4--------4-----------4--------4--------4--------4-----
A|-----5-----5--------5--------5--------5-----5-----5--------5--------5--------5--
E|--3--------------------------------------0--------------------------------------



E|--7--7--5---------------7--7--5------------------------------------------------------------
B|-----------8--7h8p7--------------8--7h8p7-----------8--3h5--3-------------8--8--8--8h10p8--
G|---------------------9---------------------9--9/11-------------2/4--9/11-------------------
D|-------------------------------------------------------------------------------------------
A|-------------------------------------------------------------------------------------------
E|-------------------------------------------------------------------------------------------



E|-------------------------------------------------------------------------------------------
B|-------------------------------------------------------------------------------------------
G|--12/14h16--12--12--12--12/14h12--11--9----------------------------------------------------
D|-----------------------------------------9--9--7------------------9--9--7------------------
A|--------------------------------------------------10--9h10p9---------------10--9h10p9------
E|--------------------------------------------------------------12-----------------------12--



E|-------------------------------------------------
B|-------------------------------------------------
G|-------------------------------------------------
D|-------------------------------------------------
A|-----------------1--1--0---------------1v--------
E|--12/14--15--10-----------2--1h2p1--0------------
http://www.guitartabcreator.com
Guitar Tab Creator is intended to store guitar tab created through the tool. It currently does not support in-line text editing. Any text you place in here will be lost. If you need to comment on your tab, please use the "Tab Notes" section located below.