D Major song

(/) Slide Up  (\) Slide Down  (h) Hammer On  (p) Pull Off  (b) Bend (r) Release (v) Vibrato


E|-----------------------------------------------------------------------------
B|-----------5-----------------------------------5--------------------------7--
G|-----5--7-----------5--5--7--7--5--5-----5--7-----------5--5--7--7--5--5--7--
D|--7-----------7--7--------------------7-----------7--7--------------------7--
A|-----------------------------------------------------------------------------
E|-----------------------------------------------------------------------------



E|--------------------------------------------------------------------
B|--7--7--7--7--7--7--7--7--7--5--5--5--5--5--5--5--5--5--5-----------
G|--7--7--7--7--7--7--7--7--7--5--5--5--5--5--5--5--5--5--5--6--4--6--
D|--7--7--7--7--7--7--7--7--7--5--5--5--5--5--5--5--5--5--5--7--5--7--
A|-----------------------------------------------------------7--5--7--
E|-----------------------------------------------------------5--3--5--



E|--------------------------------------------------------------------------
B|--------------------------------------------------------------------------
G|--------------------------------------------------------------------------
D|--5--5--5--5--5--5--5--5--5--5--5--7--7--7--7--7--7--7--7--7--7--7--7--7--
A|--3--3--3--3--3--5--5--5--5--5--5--7--7--7--7--7--7--7--7--7--7--7--7--7--
E|-----------------3--3--3--3--3--3--5--5--5--5--5--5--5--5--5--5--5--5--5--



E|--------------------------------------------------------------------------
B|--------------------------------------------------------------------------
G|--------------------------------------------------------------------------
D|--5--5--5--5--5--7--7--7--7--7--7--7--7--7--7--7--7--7--7--7--7--7--7--7--
A|--3--3--3--3--3--5--5--5--5--5--5--7--7--7--7--7--7--7--7--7--7--7--7--7--
E|-----------------------------------5--5--5--5--5--5--5--5-----5--5--5--5--



E|--
B|--
G|--
D|--
A|--
E|--



E|-----
B|-----
G|--5--
D|--7--
A|-----
E|-----



E|-----------------------------------------------------------------------------
B|-----------------------------------------------------------------------------
G|--------5--5--------5--5--------5--5--------5--5--------5--5--------5--5-----
D|--7--7--------7--7--------7--7--------7--7--------5--5--------5--5-----------
A|-----------------------------------------------------------------------------
E|-----------------------------------------------------------------------------



E|--------------------------------------------------------------------------
B|--------------------------------------------------------------------------
G|--------5--5--------5--5--------7--7--------7--7--------7--7--------7--7--
D|--5--5--------5--5--------5--5--------5--5--------5--5--------5--5--------
A|--------------------------------------------------------------------------
E|--------------------------------------------------------------------------



E|--------------------------------------------------
B|--------------------------------------------------
G|--------9--9--------9--9--------9--9--------9--9--
D|--7--7--------7--7--------7--7--------7--7--------
A|--------------------------------------------------
E|--------------------------------------------------
http://www.guitartabcreator.com
Guitar Tab Creator is intended to store guitar tab created through the tool. It currently does not support in-line text editing. Any text you place in here will be lost. If you need to comment on your tab, please use the "Tab Notes" section located below.