Bm song solo

(/) Slide Up  (\) Slide Down  (h) Hammer On  (p) Pull Off  (b) Bend (r) Release (v) Vibrato


E|----------------------------------------9---------9---------7--------7---------------------------
B|-------------------------------------------10--7-----10--7-----8--5-----8------------------------
G|-------6--6/7--7/9/11/14--7--7/9--7--6-----------------------------------------------------------
D|--7/9----------------------------------------------------------------------7--7/9--14--12--------
A|-------------------------------------------------------------------------------------------------
E|-------------------------------------------------------------------------------------------------



E|------------------------------------------------------14--12------14--12------16--12------16-----
B|------------------------------12--14--------------------------14----------14----------14---------
G|--14--11--------------14--11----------14--16--18--14---------------------------------------------
D|----------12--14--12-----------------------------------------------------------------------------
A|-------------------------------------------------------------------------------------------------
E|-------------------------------------------------------------------------------------------------



E|--12---------------------------------------------------------------------------------------
B|------14--12-------------------------------------------------------------------------------
G|-------------------------------------------------------------------------------------------
D|--------------7/9--11-----7/9--11--------------------7/9--11-----12--11-----12--11--12-----
A|-----------------------9-----------9--7--9--7--5--4-----------9----------9-----------------
E|-------------------------------------------------------------------------------------------



E|----------------------------------------------------------------------------------------------
B|----------------------------------------------------------------------------------------------
G|----------------------------------------------------------------------------------------------
D|--12/14--11------12--11-----12--11-----14--12------14--12------16--16--16--16--16--16--16-----
A|-------------12----------9----------9----------14----------14---------------------------------
E|----------------------------------------------------------------------------------------------



E|-----------------------------------------------------------------------------------------
B|-----------------------------------------------------------------------------------------
G|-----------------------------------------------------------------------------------------
D|--16--16--16--19--19--19--19--19--19--19--19--19--19--19--16--14--16--19--16--14--16-----
A|-----------------------------------------------------------------------------------------
E|-----------------------------------------------------------------------------------------



E|------------------------------------------------------------------
B|------------------------------------------------------------------
G|------------------------------------------------------------------
D|--19--19--19--19--19--19--19--19--21--21--21--21--21--21--21--21--
A|------------------------------------------------------------------
E|------------------------------------------------------------------
http://www.guitartabcreator.com
Guitar Tab Creator is intended to store guitar tab created through the tool. It currently does not support in-line text editing. Any text you place in here will be lost. If you need to comment on your tab, please use the "Tab Notes" section located below.