begining

(/) Slide Up  (\) Slide Down  (h) Hammer On  (p) Pull Off  (b) Bend (r) Release (v) Vibrato


E|---------------------------
B|---------------------------
G|-------------5v------------
D|-----7p5--3----------------
A|--5--------------3--0h3h5--
E|---------------------------



E|-------------------------------
B|-------------------------------
G|-------------------------------
D|-5-5-5---5-5-5---5-5-5---3-5-7-
A|-5-5-5---5-5-5---5-5-5---3-5-7-
E|-5-5-5---5-5-5---5-5-5---3-5-7-



E|-
B|-
G|-
D|-
A|-
E|-
http://www.guitartabcreator.com
Guitar Tab Creator is intended to store guitar tab created through the tool. It currently does not support in-line text editing. Any text you place in here will be lost. If you need to comment on your tab, please use the "Tab Notes" section located below.