Satin Doll



G|----------------------------------------------------------------------------------0--0--
D|------3-----------3-----------3-----3--2----0-------------1--1--------1--1--0--0--------
A|-------------------------------------------------4--3--3--------3--3--------------------
E|---------1-----------1-----------1------------------------------------------------------



G|--------0-----0--0--5--5--------4-----------------------------------------------------
D|--0--0-----0--------------4--4--------------0--3-----3--0-----------3--3--------3--3--
A|-----------------------------------2--1--3--------2--------2--3--3--------3--3--------
E|--------------------------------------------------------------------------------------



G|--------0--0--------0-----0--0--5--5--------4-----------------3--2--0-----------3--3--
D|--0--0--------0--0-----0--------------4--4--------------0--3-----------3--3--3--------
A|-----------------------------------------------2--1--3--------------------------------
E|--------------------------------------------------------------------------------------



G|--------3--3--------0--3--------------------------------------
D|--3--3--------1--3--------1--0--------------------------------
A|--------------------------------3--1--------3--3--------3--3--
E|--------------------------------------3--3--------3--3--------



G|-----0-1--0-------------
D|-3-4--------4-3---------
A|------------------------
E|------------------------



G|--------------------------------0--0--------0-----0--0--5--5--------4-----------------
D|--------3--3--------3--3--0--0--------0--0-----0--------------4--4--------------0-----
A|--3--3--------3--3-----------------------------------------------------2--1--3-----4--
E|--------------------------------------------------------------------------------------



G|---------------3----------3--3--------3--3--------0--3-----------------------------------------
D|--------------------3--3--------3--3--------1--3--------1--0-----------------------------------
A|--3--2----1---------------------------------------------------3--1--------3--3--------3--3-----
E|--------------------------------------------------------------------3--3--------3--3-----------



G|--5--3--2--0--------------------------------------------0--0--------2--3--0--0--5--5--
D|--------------3--1--0-----------3--3--------3-----0--0--------0--0--------------------
A|-----------------------4--3--3--------3--3-----4--------------------------------------
E|--------------------------------------------------------------------------------------



G|--------4--4---------------------------3--
D|--4--4--------------0---------------------
A|--------------1--3-----4--3--2----1-------
E|------------------------------------------



G|--3--2--0--------------1--0------0-----------------------------
D|-----------3--------0---------------4--------------------------
A|--------------1--3-----------------------2--------1----1-------
E|---------------------------------------------------------------

Guitar Tab Creator is intended to store guitar tab created through the tool. It currently does not support in-line text editing. Any text you place in here will be lost. If you need to comment on your tab, please use the "Tab Notes" section located below.