Cubano Chant

(/) Slide Up  (\) Slide Down  (h) Hammer On  (p) Pull Off  (b) Bend (r) Release (v) Vibrato


G|---------------------------------------------------------------------0--------------------
D|--------------------------------------------------3----------0----0-----------------------
A|-------------------------------------------------------3--3-------------------------------
E|------------------------------------------------------------------------------------------



G|-------------------0-----------------------------------0-------------------------------------0----
D|--3--------0----0---------------------3--------0----0-----------------------3--------0----0-------
A|-----3--3--------------------------------3--3----------------------------------3--3---------------
E|--------------------------------------------------------------------------------------------------



G|-----------------------0----0----0--0--------------------------------------------3--2--1-----
D|--0---------------0--------------------------0------------------0--0--------0-------------0--
A|-----3----1--0------------------------------------3----0--------------0--0-------------------
E|---------------------------------------------------------------------------------------------



G|-------------------------------------0---------------------------------------0----
D|------------------3----------0----0-----------------------3----------0----0-------
A|-----------------------3--3------------------------------------3--3---------------
E|----------------------------------------------------------------------------------



G|---------------------0-------------------------------------------2----------
D|--3----------0----0----------3----------1----1-------------3--4-------------
A|-------3--3---------------3-------1--1--------------------------------------
E|------------------------------------------------4---------------------------



G|--0--0--3--0--------------0-----------------------0--0--3--0--------------0-----------------------
D|--------------0--0--3--0-----0--------0--0--3--0--------------0--0--3--0-----0--------0--0--0-----
A|--------------------------------1--3--------------------------------------------1--3--------------
E|--------------------------------------------------------------------------------------------------



G|--0----------------
D|-------------------
A|-------------------
E|-------------------



G|-------------------------------------------2--------
D|-----------3--------1--1-------------3--4-----------
A|--------3-----1--1----------------------------------
E|--------------------------4-------------------------
http://www.guitartabcreator.com
Guitar Tab Creator is intended to store guitar tab created through the tool. It currently does not support in-line text editing. Any text you place in here will be lost. If you need to comment on your tab, please use the "Tab Notes" section located below.