The Blues is loose

(/) Slide Up  (\) Slide Down  (h) Hammer On  (p) Pull Off  (b) Bend (r) Release (v) Vibrato


G|----------------------------------------3--1-----------------------0--2--3--3--1--1-----
D|-------------1--1--1-----------------3--------3--------0--3--1--3-----------------------
A|--1--1--1---------------1--1----1----------------1--3-----------------------------------
E|----------------------------------------------------------------------------------------


G|-----------------0-----------0-----------------1--3--1-----------2--5--2--------0-----
D|--3--3--0--0--1-----------------1--------0--3-----------3--0--3-----------1--3-----3--
A|--------------------1--3--1--------4--1-----------------------------------------------
E|--------------------------------------------------------------------------------------


G|--------------3--1--------------------------0--2--3--3--1--1-----------------0--3--5--
D|--------0--3--------3--0--------0--3--1--3--------------------3--3--0--0--1-----------
A|--1--3--------------------1--3--------------------------------------------------------
E|--------------------------------------------------------------------------------------


G|--3--0-----------------1--3--1-----------2--5--2--------0-----------------3--1--------
D|--------1--------0--3-----------3--0--3-----------1--3-----3--------0--3--------3--0--
A|-----------4--1-----------------------------------------------1--3--------------------
E|--------------------------------------------------------------------------------------


G|--------------------0--2--3--3--1--1-----------------0--3--5--3--0-----------------1-----
D|--------0--3--1--3--------------------------0-----1-----------------1--------0--3--------
A|--1--3--------------------------------1--3-----1-----------------------4--1--------------
E|-----------------------------------------------------------------------------------------


G|--3--1-----------2--5--2--------2-----------------3--1------------------------------
D|--------3--0--3-----------1--3-----3--------0--3--------3--0-------------1--1--1----
A|--------------------------------------1--3--------------------1--1--1---------------
E|------------------------------------------------------------------------------------


G|---------------------------2--5--2--------2-----------------3--1-------------------
D|------------------------3-----------1--3-----3--------0--3--------3--0-------------
A|--1--1--1----1--1--1----------------------------1--3--------------------1--1--1----
E|-----------------------------------------------------------------------------------


G|----------------------------------------------------------------------------------
D|--1--1--1--------------------------1--1--1----1--1--1-----------------------------
A|-------------1--1--1----1--1--1--------------------------1--1--1----1--1--1-------
E|----------------------------------------------------------------------------------


G|-----2--5--2--------2-----------------3--1--------
D|--3-----------1--3-----3--------0--3--------3--0--
A|--------------------------1--3--------------------
E|--------------------------------------------------


G|-----2--5--2--------2-------------------------------------------3--1-------------
D|--3-----------1--3-----3-------------1--1--1-----------------3--------3----------
A|--------------------------1--1--1---------------1--1----1----------------1----1--
E|--------------------------------------------------------------------------------- http://www.guitartabcreator.com
Guitar Tab Creator is intended to store guitar tab created through the tool. It currently does not support in-line text editing. Any text you place in here will be lost. If you need to comment on your tab, please use the "Tab Notes" section located below.