Blue monk

(/) Slide Up  (\) Slide Down  (h) Hammer On  (p) Pull Off  (b) Bend (r) Release (v) Vibrato
E|--------------------------------------------------------------------------
B|--------------------------------------------------------------------------
G|-3---3------------------------------3----------3----------3---------------
D|-------0----1---1-2----3---------------1--1-------1--2-------1-3----------
A|--------------------------------------------------------------------------
E|--------------------------------------------------------------------------



E|-----------------------------------------------------------------
B|-----------------------------------------------------------------
G|-3--------------------------------------------0--2--3--2--1------
D|------3-----3---------3-----------------3--4-----------------3---
A|---------1-------------------------------------------------------
E|-------------------3-----------3---------------------------------



E|-----------------------------------------------------------------------------------------
B|-----------------------------------------------------------------------------------------
G|--------------3--3--5--4--3--------------0--3--------------------------------------0-----
D|--1--0-----------------------------0--1-----------1--1--2--2--3-----------------0-----4--
A|--------4--1-----------------1--3--------------1-----------------1-----3--2--1-----------
E|--------------------------------------------------------------------2--------------------



E|--------------------------------------------------------------------------------------
B|--------------------------------------------------------------------------------------
G|-----------------------2--3-----------3-----0-----------------------3-----------------
D|--3-----3-----3-----3--------0--1--3-----0-----3--------3--2--1--1-----1--------3--3--
A|--------------------------------------------------1--1--------------------1--1--------
E|-----3-----3-----3--------------------------------------------------------------------



E|--------------------------------------------------------------------------------------------------
B|--------------------------------------------------------------------------------------------------
G|--3--0--------------3--0--------3--0--------------3--0--------------------------------------------
D|--------3--0--1--1--------1--1--------------0--0--------3--0--3-----3-----3-----3--------0--1--2--
A|--------------------------------------1--1-----------------------------------------0--1-----------
E|-----------------------------------------------------------------3-----3-----3--------------------



E|--------------
B|--------------
G|--------0--2--
D|--3--4--------
A|--------------
E|--------------



E|-----------------------------------------------------------------------------------------
B|-----------------------------------------------------------------------------------------
G|--3--------------------0--3--------0-----------------------0--------3--0--------3--1--0--
D|--------0--3--2--1--3-----------0-----3--------0--3--1--3-----3--1--------1--------------
A|-----1-----------------------1-----------1--3--------------------------------1-----------
E|-----------------------------------------------------------------------------------------



E|-----------------------------------------------------------------
B|-----------------------------------------------------------------
G|-----------0-----------------0--2--5--4--3-----------------0--2--
D|--2--1-----------0--1--2--3-----------------0--1--2--3--4--------
A|--------1-----3--------------------------------------------------
E|-----------------------------------------------------------------



E|--------------------------------------------------------------------------------------
B|--------------------------------------------------------------------------------------
G|--3--------------------------------0--3--1-----------3--0-----------0--2--3--3--1--1--
D|--------0--3--1--------------0--3-----------3--2--1--------3--1--3--------------------
A|-----1-----------4--3--2--1-----------------------------------------------------------
E|--------------------------------------------------------------------------------------



E|-----------------------------------------------------------------
B|-----------------------------------------------------------------
G|--0-----------------------------------------------------0--------
D|-----3--1--0-----0--1-----3-----------------0--1--2--3-----3-----
A|--------------3--------3-----3--------0--1--------------------2--
E|--------------------------------1--3-----------------------------



E|----------------------------------------------------------------------------------
B|----------------------------------------------------------------------------------
G|-----------------1---0--1-2--------3--1--0-----------------0---0-1-2-3---3-5-6----
D|-------0---1-2-3-------------1--3-----------4--3--1--1-3-4------------------------
A|-1-3-4----------------------------------------------------------------------------
E|----------------------------------------------------------------------------------



E|-------------------------------------------------------------------------
B|-------------------------------------------------------------------------
G|--2--3-----------1--0----------------------------------------------0--2--
D|--------0--3-----------4--0-----0-----0-----0-----0----------3--4--------
A|--------------1----------------------------------------------------------
E|-----------------------------1-----1-----1-----1-------------------------



E|-------------------------------
B|-------------------------------
G|--3--0--------------3----------
D|--------3----------------------
A|-----------1-------------------
E|-------------------------------
http://www.guitartabcreator.com
Guitar Tab Creator is intended to store guitar tab created through the tool. It currently does not support in-line text editing. Any text you place in here will be lost. If you need to comment on your tab, please use the "Tab Notes" section located below.