So What - Miles Davis

(/) Slide Up  (\) Slide Down  (h) Hammer On  (p) Pull Off  (b) Bend (r) Release (v) Vibrato

Stave 1:

E|------------------------7--5---------------------------7--5--
B|----------------5-------8--6----------------5----------8--6--
G|--------4/5--7-----5h7--7--5--------4/5--7-----5h7-----7--5--
D|-----7------------------7--5-----7------------------7--7--5--
A|--5---------------------7--5--5------------------------7--5--
E|-------------------------------------------------------------

Stave 2:

E|------------------------7--5-----------------------7--5--
B|----------------5-------8--6--4/5--4/5--4/5--------8--6--
G|--------4/5--7-----5h7--7--5-----------------7-----7--5--
D|-----7------------------7--5--------------------7--7--5--
A|--5---------------------7--5-----------------------7--5--
E|---------------------------------------------------------

http://www.guitartabcreator.com
Guitar Tab Creator is intended to store guitar tab created through the tool. It currently does not support in-line text editing. Any text you place in here will be lost. If you need to comment on your tab, please use the "Tab Notes" section located below.