song riffr yes

(/) Slide Up  (\) Slide Down  (h) Hammer On  (p) Pull Off  (b) Bend (r) Release (v) Vibrato
E|--12--15----------------------------------12--15--------------------------------------
B|----------15--13--15--------------15--13----------15--13--15----------------------13--
G|----------------------15--13--15------------------------------15--13------15--13------
D|----------------------------------------------------------------------15--------------
A|--------------------------------------------------------------------------------------
E|--------------------------------------------------------------------------------------



E|------------------------------
B|--15--13--15--13--10--13------
G|--------------------------10--
D|------------------------------
A|------------------------------
E|------------------------------



E|-------------------------------
B|-------------------------------
G|-------------------------------
D|--14--7--10--14--7--3--10------
A|--14--7--10--14--7--3--10------
E|--12--5--8---12--5--1--8-------
http://www.guitartabcreator.com
Guitar Tab Creator is intended to store guitar tab created through the tool. It currently does not support in-line text editing. Any text you place in here will be lost. If you need to comment on your tab, please use the "Tab Notes" section located below.