sexy fast riff

(/) Slide Up  (\) Slide Down  (h) Hammer On  (p) Pull Off  (b) Bend (r) Release (v) Vibrato


E|--------5--3--------5--3--------5--3--------5--3--5--
B|--3--5--------3--6--------3--5--------3--6-----------
G|-----------------------------------------------------
D|-----------------------------------------------------
A|-----------------------------------------------------
E|-----------------------------------------------------



E|--------5--3--------5--3--------5--3--------5--3--5-----------
B|--3--5--------3--6--------3--5--------3--6-----------5--3-----
G|-----------------------------------------------------------6--
D|--------------------------------------------------------------
A|--------------------------------------------------------------
E|--------------------------------------------------------------
http://www.guitartabcreator.com
Guitar Tab Creator is intended to store guitar tab created through the tool. It currently does not support in-line text editing. Any text you place in here will be lost. If you need to comment on your tab, please use the "Tab Notes" section located below.