Eyes of Elvira

(/) Slide Up  (\) Slide Down  (h) Hammer On  (p) Pull Off  (b) Bend (r) Release (v) Vibrato


E|-----------0-----------------0------------12--|-----------0-----------------0-----------------0--------
B|--------0-----0-----------0-----0---------12--|--------0-----0-----------0-----0-----------0-----0-----
G|-----0-----------0-----0-----------0------12--|-----0-----------0-----2-----------0-----4-----------0--
D|----------------------------------------------|--2-----------------4-----------------5-----------------
A|----------------------------------------------|--------------------------------------------------------
E|--0-----------------0-----------------12------|--------------------------------------------------------



E|-----------0-----------------8-----------8--------8-----------------7--------7--------7--------
B|--------0-----0--------8--------8-----------8--------8--------7--------7--------7--------7-----
G|-----5-----------0--------5--------5-----------5--------5--------4--------4--------4--------4--
D|--7--------------------------------------------------------------------------------------------
A|--------------------7-----------------7--------------------6-----------------6-----------------
E|-----------------------------------------------------------------------------------------------



E|-----------0--------2--------2--------3--------3-----------------0--------0--------0--------5--------5--
B|--------1-----1-----1--1--------1--------0--------0-----------0-----0--------1--------0--------5--------
G|-----0-----------0--2-----2--------0--------0--------0-----0-----------0--------0--------0--------5-----
D|--------------------0-----------------------------------------------------------------------4-----------
A|--0-----------------------------------------------------------------------3-----------------------------
E|--------------------------------------3-----------------0-----------------------------------------------



E|-----------2-----------------2--------
B|-----0--------0-----------0-----0-----
G|--------2--------2-----2-----------0--
D|--------------------1-----------------
A|--2-----------------------------------
E|--------------------------------------
http://www.guitartabcreator.com
Guitar Tab Creator is intended to store guitar tab created through the tool. It currently does not support in-line text editing. Any text you place in here will be lost. If you need to comment on your tab, please use the "Tab Notes" section located below.