leave a tender moment alone

(/) Slide Up  (\) Slide Down  (h) Hammer On  (p) Pull Off  (b) Bend (r) Release (v) Vibrato
E|-------------------------------------------------------------------------
B|----------------------------------------------------------------------6--
G|--5--7--5--------3-----3-----3--5--7--5h7---------3-----3--5/7--5--7-----
D|-----------3--5-----5-----5------------------3/5-----5-------------------
A|-------------------------------------------------------------------------
E|-------------------------------------------------------------------------



E|-----------------------------------------------------------------6----------
B|--6--8-------------------------------------------------6/8--9-------9--9\8--
G|--------7\5-----------3-----3-----3--5/7--3----3--5/7-----------------------
D|-----------------3/5-----5-----5--------------------------------------------
A|----------------------------------------------------------------------------
E|----------------------------------------------------------------------------
http://www.guitartabcreator.com
Guitar Tab Creator is intended to store guitar tab created through the tool. It currently does not support in-line text editing. Any text you place in here will be lost. If you need to comment on your tab, please use the "Tab Notes" section located below.