Byens hotel, solo #1

(/) Slide Up  (\) Slide Down  (h) Hammer On  (p) Pull Off  (b) Bend (r) Release (v) Vibrato


E|--10b--------------------------------------------------5b------8b--5---------------------
B|-----8--10b--6--8p6-----6-------------3-------------------------------8b6--6--6----------
G|---------------------5-----5--5/4--2-----2--4--5----5----------------------------5/4-----
D|-----------------------------------------------------------------------------------------
A|-----------------------------------------------------------------------------------------
E|-----------------------------------------------------------------------------------------



E|----------------
B|----------------
G|--2\4--5--7--7--
D|----------------
A|----------------
E|----------------
http://www.guitartabcreator.com
Guitar Tab Creator is intended to store guitar tab created through the tool. It currently does not support in-line text editing. Any text you place in here will be lost. If you need to comment on your tab, please use the "Tab Notes" section located below.