your grace is enough

(/) Slide Up  (\) Slide Down  (h) Hammer On  (p) Pull Off  (b) Bend (r) Release (v) Vibrato

(intro)
E|----------------------------------------------------7--7--7-----
B|--8--8--8--10--7--8--10--7--8--8--7--------8--7--8--------------
G|-------------------------------------9--7-----------------------
D|----------------------------------------------------------------
A|----------------------------------------------------------------
E|----------------------------------------------------------------


(intro continued)
E|-------------------------------------------------------------------------------------------------
B|--8--8--8--10--7--8--10--7--8--10/12--12--12--12--12--12--10--10/12--12--12--12--12--12--10--10--
G|-------------------------------------------------------------------------------------------------
D|-------------------------------------------------------------------------------------------------
A|-------------------------------------------------------------------------------------------------
E|-------------------------------------------------------------------------------------------------


(outro of a verse3)
E|-------------------------------------------------------------------
B|-----------------7--7--7--7--7--8--8--8--8--8--10--10--10--10--10--
G|--9--9--9--9--9----------------------------------------------------
D|-------------------------------------------------------------------
A|-------------------------------------------------------------------
E|-------------------------------------------------------------------


(during the chorus4)
E|-----------10----------------------10----------------------10-----------10--10--8--8--7--7--------
B|--8--7--8------8--7--8----8--7--8------8--7--8----8--7--8------8--7--8----------------------------
G|--------------------------------------------------------------------------------------------------
D|--------------------------------------------------------------------------------------------------
A|--------------------------------------------------------------------------------------------------
E|--------------------------------------------------------------------------------------------------

TU GRACIA ES TOTAL
Chris Tomlin “Your grace is enough”
INTRO: /G-C-Em-C/
G C2
CUAN GRANDE ES TU FIDELIDAD
Em7 C2
TE ACERCAS A MI CORAZON
G D C
ME LLEVAS A LUGARES DE ABUNDANCIA
Em7 D C
Y NADA NOS SEPARARA

Am Em
RECUERDA A TU PUEBLO
Am Em
RECUERDA A TUS HIJOS
Am D C (D)
RECUERDA TU PACTO, OH DIOS (outro of verse3)

G D
TU GRACIA ES TOTAL
Em C
TU GRACIA ES TOTAL
G D C
TU GRACIA ES TOTAL PARA MI

(intro)
G C2
GRANDE ES TU AMOR POR MI, OH DIOS
Em C2
QUE AUNQUE SOY DEBIL ME HACES FUERTE (during chorus4)
G D C2
PONES EN MI NUEVA CANCION
Em D C2
TODO TU PUEBLO CANTARA

Am Em
RECUERDA A TU PUEBLO…

G D
// TU GRACIA ES TOTAL
Em C
TU GRACIA ES TOTAL
G D C
TU GRACIA ES TOTAL PARA MI //

END (G-C-Em-C-G)
http://www.guitartabcreator.com
http://www.guitartabcreator.com
Guitar Tab Creator is intended to store guitar tab created through the tool. It currently does not support in-line text editing. Any text you place in here will be lost. If you need to comment on your tab, please use the "Tab Notes" section located below.