mighty to save

(/) Slide Up  (\) Slide Down  (h) Hammer On  (p) Pull Off  (b) Bend (r) Release (v) Vibrato

(intro)
E|--9----------9----------9----------9----------9----------9----------
B|-----10--12-----10--12-----10--12-----10--12-----10--12-----10--12--
G|--------------------------------------------------------------------
D|--------------------------------------------------------------------
A|--------------------------------------------------------------------
E|--------------------------------------------------------------------


(solo)
E|------------------------------------------------------12--9-----------------
B|--10--10------------------------------------10--10-----------12--10--10/12--
G|----------11--9------9---------------9--11----------------------------------
D|-----------------11-----11--9--9/11-----------------------------------------
A|----------------------------------------------------------------------------
E|----------------------------------------------------------------------------

DIOS PUEDE SALVAR
Hillsong “Mighty to save”
INTRO: / D-A-F#m-E-D /

D A F#m
TODOS NECESITAN, AMOR QUE NUNCA FALLA
E D
TU GRACIA Y COMPASION
D A F#m
TODOS NECESITAN, PERDON Y ESPERANZA
E D-E-D-E
DE UN DIOS QUE SALVA

A E
CRISTO, REY DE MARAVILLAS
D A F#m E
SOLO EL PUEDE SALVAR, MI DIOS PUEDE SALVAR
A E
POR SIEMPRE, DIOS DE SALVACION
D A F#m E (INTRO)
JESUS LA MUERTE VENCIO, EL LA MUERTE VENCIO


D A F#m
TE ENTREGO MIS DEFECTOS, MIS MIEDOS Y FRACASOS
E D
QUITALOS DE MI
A F#m
MI VIDA ENTERA OFRESCO, TODO LO QUE TENGO
E D-E-D-E
A TI LO ENTREGO

A E
CRISTO, REY DE MARAVILLAS…

D A E
/ EN LA TIERRA, TU LUZ BRILLARA, CANTAMOS,
D A E
POR LA GLORIA DE TU MAJESTAD, CRISTO /

A E
CRISTO, REY DE MARAVILLAS… ( NO INSTRUMENTS )

D A E
/// EN LA TIERRA, TU LUZ BRILLARA, CANTAMOS
D A E END ( E )
POR LA GLORIA DE TU MAJESTAD, CRISTO ///


http://www.guitartabcreator.com
Guitar Tab Creator is intended to store guitar tab created through the tool. It currently does not support in-line text editing. Any text you place in here will be lost. If you need to comment on your tab, please use the "Tab Notes" section located below.