forever (michael w. smith)

(/) Slide Up  (\) Slide Down  (h) Hammer On  (p) Pull Off  (b) Bend (r) Release (v) Vibrato


E|--8--7--8--8/10----8--7--8--10--8--7--8--10--8--7-----------
B|---------------------------------------------------8--------
G|------------------------------------------------------------
D|------------------------------------------------------------
A|------------------------------------------------------------
E|------------------------------------------------------------


POR SIEMPRE
Michael W. Smith “Forever”
INTRO: G-Em-D-C-G
G
DAD GRACIAS A DIOS, SEÑOR Y REY SU AMOR ES PARA SIEMPRE
C
POR QUE BUENO ES SOBRE LA CREACION
G D C
SU AMOR ES PARA SIEMPRE CANTAD Y ALABAD

G
CON MANO DE PODER Y BRAZOS EXTENDIDOS
C
SU AMOR ES PARA SIEMPRE POR LA VIDA QUE NACIO DE NUEVO
G
SU AMOR ES PARA SIEMPRE
D C (D)
/ CANTAD Y ALABAD /

(in chorus)
E|--8--7--8--8/10----8--7--8--10----8--7--8--10--8--7--------
B|-----------------------------------------------------8-----
G|-----------------------------------------------------------
D|-----------------------------------------------------------
A|-----------------------------------------------------------
E|-----------------------------------------------------------
G Em
POR SIEMPRE DIOS ES FIEL, POR SIEMPRE FUERTE ES EL
D
POR SIEMPRE PERMANECE
C G
POR SIEMPRE, POR SIEMPRE, POR SIEMPRE

G
DESDE EL AMANECER HASTA EL ATARDECER
C
SU AMOR ES PARA SIEMPRE, POR SU GRACIA SEGUIREMOS ADELANTE
G
SU AMOR ES PARA SIEMPRE
D C (D)
/ CANTAD Y ALABAD /

G
POR SIEMPRE…
(in chorus)
E|--8--7--8--8/10----8--7--8--10----8--7--8--8--10--8--7-----
B|--------------------------------------------------------8--
G|-----------------------------------------------------------
D|-----------------------------------------------------------
A|-----------------------------------------------------------
E|-----------------------------------------------------------
G
//// SU AMOR ES PARA SIEMPRE ////
D C
/ CANTAD Y ALABAD /

(in last chorus
E|--11--10--11--11/12----11--10--11--12----11--10--11--12--11--10-----
B|-----------------------------------------------------------------11-
G|--------------------------------------------------------------------
D|--------------------------------------------------------------------
A|--------------------------------------------------------------------
E|--------------------------------------------------------------------
A F#m
// POR SIEMPRE DIOS ES FIEL, POR SIEMPRE FUERTE ES EL
E
POR SIEMPRE PERMANECE
D A (A-F#m-E-D-A)
POR SIEMPRE, POR SIEMPRE, POR SIEMPRE //
http://www.guitartabcreator.com
Guitar Tab Creator is intended to store guitar tab created through the tool. It currently does not support in-line text editing. Any text you place in here will be lost. If you need to comment on your tab, please use the "Tab Notes" section located below.