No Time To Waste

(/) Slide Up  (\) Slide Down  (h) Hammer On  (p) Pull Off  (b) Bend (r) Release (v) Vibrato
E|----------------------------------------------------------------------------------
B|-------------0---------------------0---------------------0---------------------0--
G|----------0-----0------0--------0-----0-----0---------0-----0------0--------0-----
D|------20-----------20--------7-----------7--------11-----------11--------5--------
A|--18----------------------5--------------------9----------------------3-----------
E|----------------------------------------------------------------------------------



E|----------------------------------
B|--0---0---0---0---0---0---0---0---
G|--0---0---0---0---0---0---0---0---
D|--20--20--20--20--20--20--20--20--
A|--18--18--18--18--18--18--18--18--
E|----------------------------------



E|--------------------------------
B|--0--0--0--0--0--0--0--0--0--0--
G|--0--0--0--0--0--0--0--0--0--0--
D|--7--7--7--7--7--7--7--7--7--7--
A|--5--5--5--5--5--5--5--5--5--5--
E|--------------------------------



E|----------------------------------
B|--0---0---0---0---0---0---0---0---
G|--0---0---0---0---0---0---0---0---
D|--11--11--11--11--11--11--11--11--
A|--9---9---9---9---9---9---9---9---
E|----------------------------------



E|--------------
B|--0--0--0--0--
G|--0--0--0--0--
D|--5--5--5--5--
A|--3--3--3--3--
E|--------------
http://www.guitartabcreator.com
Guitar Tab Creator is intended to store guitar tab created through the tool. It currently does not support in-line text editing. Any text you place in here will be lost. If you need to comment on your tab, please use the "Tab Notes" section located below.