Show Us Your Glory

(/) Slide Up  (\) Slide Down  (h) Hammer On  (p) Pull Off  (b) Bend (r) Release (v) Vibrato
E|--5--2-----
B|-----------
G|--------7--
D|-----------
A|-----------
E|-----------



E|-----------
B|--5--0-----
G|--------0--
D|-----------
A|-----------
E|-----------



E|--3-----------
B|-----3--------
G|--------4-----
D|-----------5--
A|--------------
E|--------------
http://www.guitartabcreator.com
Guitar Tab Creator is intended to store guitar tab created through the tool. It currently does not support in-line text editing. Any text you place in here will be lost. If you need to comment on your tab, please use the "Tab Notes" section located below.