Across 110th Street

(/) Slide Up  (\) Slide Down  (h) Hammer On  (p) Pull Off  (b) Bend (r) Release (v) Vibrato


E|-----------------------------------------------------------------------------------------------
B|-----------------------------------------------------------------------------------------------
G|-----------------------------------------------------------------------------------------------
D|--------------9--9--------------9--------------------------------------------------9--9--------
A|--------9--9--------9--9-----------9--9--9--9--9-----------------------------9--9--------9--9--
E|--7--7--------------------7--7--------------------6--6--6--6--6--6--6--7--7--------------------



E|--------------------------------------------------------------------------------------------------
B|--------------------------------------------------------------------------------------------------
G|--------------------------------------------------------------------------------------------------
D|--------9--------------------------------------------------9--9-----------------------------------
A|-----------9--9--9--9--9-----------------------------9--9--------9--9--------5--7--7--7--7--7--7--
E|--7--7--------------------6--6--6--6--6--6--6--7--7--------------------7--7-----------------------



E|-------------------------------------------------------------------------------------------
B|-------------------------------------------------------------------------------------------
G|-------------------------------------------------------------------------------------------
D|----------------------------9--9-----------------------------------------------------------
A|----------------------9--9--------9--9--------5--7--7--7--7--7--7--9--9--9--9--9--8--7-----
E|--2--2--2--2--2/7--7--------------------7--7-----------------------------------------------



E|-----------------------------------------------------------------------------------------------
B|-----------------------------------------------------------------------------------------------
G|-----------------------------------------------------------------------------------------------
D|-----------------------------------------------------------------------------------------------
A|--5--7--5-----5--6--7--5--7--5-----5--6--------------------------------------------7--5--7--5--
E|-----------7--------------------7--------7--5--7--5--0--5--6--7--5--7--5--0--5--6--------------



E|----------------------------------------------------------------------------------------------
B|----------------------------------------------------------------------------------------------
G|----------------------------------------------------------------------------------------------
D|----------------------------------------------------------------------------------------------
A|-----5--6--7--5--7--5-----5--6-------------------7--5--7--5-----5--6--7--5--7--5-----5--6-----
E|--7--------------------7--------7--------5--7----------------7--------------------7-----------



E|-----------------------------------------------------------------------------------------
B|-----------------------------------------------------------------------------------------
G|-----------------------------------------------------------------------------------------
D|-----------------------------------------------------------------------------------------
A|-----------------------------------------0--0--0--0--0--0--------------------0--2--2--2--
E|--7--5--7--5--0--5--7--3--3--3--3--3--3--------------------3--2--2--2--2--2--------------



E|--------------------------------------------------------------------------------------
B|--------------------------------------------------------------------------------------
G|--------------------------------------------------------------------------------------
D|--0-----------------------------------------------------------------------0-----------
A|-----2--0--------------------0--0--0--0--0--------------------0--2--2--2-----2--0-----
E|-----------3--3--3--3--3--3-----------------3--2--2--2--2--2-----------------------3--
http://www.guitartabcreator.com
Guitar Tab Creator is intended to store guitar tab created through the tool. It currently does not support in-line text editing. Any text you place in here will be lost. If you need to comment on your tab, please use the "Tab Notes" section located below.