Blackened Main Riff

(/) Slide Up  (\) Slide Down  (h) Hammer On  (p) Pull Off  (b) Bend (r) Release (v) Vibrato


E|--------------------------------------------------------------------------------
B|--------------------------------------------------------------------------------
G|--------------------------------------------------------------------------------
D|--------------------------------------------------------------------------------
A|--5----5--------7-----8-----7--------5-------------3----3--------5-----6-----5--
D|--5----5--0--0--7--0--8--0--7--0--0--5--0--0--5h6--3----3--0--0--5--0--6--0--5--



E|----------------------
B|----------------------
G|-------------7--7--7--
D|-------------7--7--7--
A|-------------5--5--5--
D|--0--0--3p1--5--5--5--
http://www.guitartabcreator.com
Guitar Tab Creator is intended to store guitar tab created through the tool. It currently does not support in-line text editing. Any text you place in here will be lost. If you need to comment on your tab, please use the "Tab Notes" section located below.