Nothing Else Matters ROMA

(/) Slide Up  (\) Slide Down  (h) Hammer On  (p) Pull Off  (b) Bend (r) Release (v) Vibrato
E|--12----------14----------15----------17----------------------5h8--------------------8--
B|------12----------12----------12----------12---------------5-------5--------------5-----
G|----------12----------12----------12----------12--------5-------------5--------5--------
D|-----------------------------------------------------5----------------------5-----------
A|--------------------------------------------------0----------------------0--------------
E|----------------------------------------------------------------------------------------



E|-----------------0-------------------2---------------------12-------------------0-----------
B|--------------0-----0-------------3-----3--------------12------12------------0-----0--------
G|-----------0-----------0-------2-----------2-------12--------------12-----0-----------0-----
D|--------------------------------------------------------------------------------------------
A|----------------------------0---------------------------------------------------------------
E|--3--2--0---------------------------------------1----------------------0--------------------



E|-----------0-----------------0-----7--7--------7p0-----------------7--8--7h8p7\5--7--5--7--
B|--------0-----0-----------0--------------0-----0----0-----------0--0--0--------------------
G|-----0-----------0-----0--------0-----------0----------0-----0-----------------------------
D|-------------------------------------------------------------------------------------------
A|-------------------------------------------------------------------------------------------
E|--0-----------------0-------------------------------------0--------------------------------



E|----------------0-------------------0-----------------0-----------------2--------
B|-----------0h1-----1-----------1p0-----------------0-----0-----------3-----3-----
G|--------1-------------------1-------------------0-----------0-----2-----------2--
D|-----1-------------------1-------------------------------------------------------
A|----------------------0----------------------------------------0-----------------
E|--0------------------------------------3--2--0-----------------------------------



E|-------------12-------------------12-----------7--7--7----7-------------------
B|---------12------12------------0------0--------8--7--8----8-------------7-----
G|-----12--------------12-----0------------0-----9--7--9----9----------7-----7--
D|-----------------------------------------------9--7--9----9-------7-----------
A|--------------------------------------------7------------------5--------------
E|--1----------------------1------------------7---------------------------------



E|---------------------------------7--
B|-----------5---------------------8--
G|--------5-----5---------------9-----
D|-----5---------------------9--------
A|--3--------------3/7----7-----------
E|------------------------------------
http://www.guitartabcreator.com
Guitar Tab Creator is intended to store guitar tab created through the tool. It currently does not support in-line text editing. Any text you place in here will be lost. If you need to comment on your tab, please use the "Tab Notes" section located below.