Europa

(/) Slide Up  (\) Slide Down  (h) Hammer On  (p) Pull Off  (b) Bend (r) Release (v) Vibrato
E|-----8--10--10/11--10----8-------------------8h10p8-------------------------------------------------
B|--8-------------------------11--9v----9--11----------11------------8--9--11/13\11--9--8-------------
G|---------------------------------------------------------10/12v--------------------------8/10-------
D|----------------------------------------------------------------------------------------------------
A|----------------------------------------------------------------------------------------------------
E|----------------------------------------------------------------------------------------------------



E|-------------------------------------------------------------------------------8----
B|---------------------8--9--9/11\9--9--8----------------------------------------8----
G|--10/12--8/10----10----------------------10--8----10p8-------------------------8----
D|--------------------------------------------------------10--8-----------------------
A|---------------------------------------------------------------10\8--6/8\6----------
E|----------------------------------------------------------------------------8-------



E|-----8--10--10b10p8-------------------8h10p8----------------------------------------------
B|--8------------------11--8h9v--9--11----------11------------8--9--11h13p11--9--8----------
G|--------------------------------------------------10/12v--------------------------8/10----
D|------------------------------------------------------------------------------------------
A|------------------------------------------------------------------------------------------
E|------------------------------------------------------------------------------------------



E|-------------------------------------------------------13b------13b13r----p11----13--11--13/15v--
B|---------------------8--9--11--8h9p8---------------13--------------------------------------------
G|--10/12--8/10----10-------------------10/12----12------------------------------------------------
D|-------------------------------------------------------------------------------------------------
A|-------------------------------------------------------------------------------------------------
E|-------------------------------------------------------------------------------------------------



E|----------10--
B|------11------
G|--12----------
D|--------------
A|--------------
E|--------------
http://www.guitartabcreator.com
Guitar Tab Creator is intended to store guitar tab created through the tool. It currently does not support in-line text editing. Any text you place in here will be lost. If you need to comment on your tab, please use the "Tab Notes" section located below.