Andy Timmons - I Remember Stevie (lead guitar)

(/) Slide Up  (\) Slide Down  (h) Hammer On  (p) Pull Off  (b) Bend (r) Release (v) Vibrato
E|-------------|----------------------------------|-------------------------------------------------
B|------17b20--|--17v------15b17------------------|----------12--12---------------------------------
G|-------------|------------------14--12--14------|--12--14------12---------------------------------
D|-------------|------------------------------14--|------------------14------12---------------------
A|-------------|----------------------------------|----------------------14------12--13\12--10--12--
E|-------------|----------------------------------|-------------------------------------------------



E|-------------|--------------5-12----------|-----------------------------------------------|-------
B|-------------|----------5-7------15-13-12-|-15-13-12--------------------------------------|-------
G|-------------|--------5-------------------|----------14-14b16-14b16-14b16-14b16r14-12-14v-|-12----
D|-------------|------7---------------------|-----------------------------------------------|----14-
A|-10-12-10----|----9-----------------------|-----------------------------------------------|-------
E|----------12-|-14-------------------------|-----------------------------------------------|-------



E|-------------------------|---------------0------------|----------------------------|-
B|-------------------------|---------------10b12r10-8---|-12-12----------------------|-
G|-------12-----7----------|--------------------------9-|-12-12----------------------|-
D|----14----14v---7-7-7-9v-|----------------------------|-------14----12-14----------|-
A|-14----------------------|----------------------------|----------14-------12-10-12-|-
E|-------------------------|----------------------------|----------------------------|-
http://www.guitartabcreator.com
Guitar Tab Creator is intended to store guitar tab created through the tool. It currently does not support in-line text editing. Any text you place in here will be lost. If you need to comment on your tab, please use the "Tab Notes" section located below.