New Song

(/) Slide Up  (\) Slide Down  (h) Hammer On  (p) Pull Off  (b) Bend (r) Release (v) Vibrato

(W|WW) Whole (H|HH) Half (Q|QQ) Quarter (E|EE) 8th (S|SS) 16th (T|TT) 32nd (X|XX) 64th

t: E E E E E undefined undefined E E E E E undefined undefined E E E E E E E E E undefined undefined
E|-----------------------------------------------------------------------
B|--------1--0--1------------1--0--1------------1--0--1--3--1--0--1------
G|-----------------------------------------------------------------------
D|-----3------------------3------------------3---------------------------
A|--3------------------3------------------3------------------------------
E|-----------------------------------------------------------------------


t: E E E E E E undefined E E E E E undefined E
E|--------------------------------------
B|--1--1--1------1------1--1--1------1--
G|--------------------------------------
D|--3--3--3------3------2--2--2------2--
A|--3--3--3------3------3--3--3------3--
E|--------------------------------------
http://www.guitartabcreator.com
Guitar Tab Creator is intended to store guitar tab created through the tool. It currently does not support in-line text editing. Any text you place in here will be lost. If you need to comment on your tab, please use the "Tab Notes" section located below.