not sure yet

(/) Slide Up  (\) Slide Down  (h) Hammer On  (p) Pull Off  (b) Bend (r) Release (v) Vibrato
E|---0---0---0---0---0---0---0---0---0---0---0---0---0---0---0---0---0---0---0---0---0---0---0-----
B|-------------------------------------------------------------------------------------------------
G|-2---2---2---2-------------------1---1---1---1---2---2---2---2-------------------1---1---1---1---
D|-----------------3---3---3---3-----------------------------------3---3---3---3-------------------
A|-------------------------------------------------------------------------------------------------
E|-------------------------------------------------------------------------------------------------



E|--0-----0-----0-----0-----0-------------------------------------
B|-----------------------------1--1--3/4v--4/6\4--3--3--3p2--3/4--
G|-----2-----2-----2-----2----------------------------------------
D|----------------------------------------------------------------
A|----------------------------------------------------------------
E|----------------------------------------------------------------
http://www.guitartabcreator.com
Guitar Tab Creator is intended to store guitar tab created through the tool. It currently does not support in-line text editing. Any text you place in here will be lost. If you need to comment on your tab, please use the "Tab Notes" section located below.