Santeria

(/) Slide Up  (\) Slide Down  (h) Hammer On  (p) Pull Off  (b) Bend (r) Release (v) Vibrato


E|---------------------------------------------------------------------------------------------
B|-----------------------------------4-------------------------------5----------------7--------
G|--------9-----------9-----------------5--------5-----------6--4h6-----6----------8-----8-----
D|-----9-----9-----------9--9--------------6--------------6------------------------------------
A|--7-----------7--7-----------7--------------6-----4--4-------------------5/7--6--------------
E|--------------------------------4---------------------------------------------------------7--



E|-----4--4--7--
B|-----4--5--7--
G|--9--5--6--8--
D|--9--6--6--9--
A|--7--6--4--9--
E|-----4-----7--
http://www.guitartabcreator.com
Guitar Tab Creator is intended to store guitar tab created through the tool. It currently does not support in-line text editing. Any text you place in here will be lost. If you need to comment on your tab, please use the "Tab Notes" section located below.