Layla

(/) Slide Up  (\) Slide Down  (h) Hammer On  (p) Pull Off  (b) Bend (r) Release (v) Vibrato
E|------------------------------------------------------------------10--12--10h12p10------10------
B|--------5--6--5h6p5-----6--6/8--6--8--8/10--8--10--10/13--10--13--------------------13------13--
G|-----7---------------7--------------------------------------------------------------------------
D|--7---------------------------------------------------------------------------------------------
A|------------------------------------------------------------------------------------------------
E|------------------------------------------------------------------------------------------------



E|-----------------------------------------------------------------------------------------------
B|--10------10-------------------------------------5--6--5---------------------------------------
G|------12------12--10h12p10\9--10--9--7--------7-----------7--5--7------------------------------
D|-------------------------------------------7-----------------------7p5--3-----3h5--3-----------
A|---------------------------------------------------------------------------5----------5--3--5--
E|-----------------------------------------------------------------------------------------------



E|-----------4--0--0--0--0--2--2--0--0--2--2--0--0--
B|--------5--4--5--7--0--3--2--4--0--2--2--4--0--2--
G|--------4--5--5--7--1--1--2--4--1--2--2--4--1--2--
D|--------6--4--5--7--2--2--4--4--2--2--4--4--2--2--
A|-----3--4--6--3--5--2--2--4--2--2--0--4--2--2--0--
E|--5--------4--------0--0--2-----0-----2-----0-----
http://www.guitartabcreator.com
Guitar Tab Creator is intended to store guitar tab created through the tool. It currently does not support in-line text editing. Any text you place in here will be lost. If you need to comment on your tab, please use the "Tab Notes" section located below.