Viathen

(/) Slide Up  (\) Slide Down  (h) Hammer On  (p) Pull Off  (b) Bend (r) Release (v) Vibrato
t: W W W W W W W W W W W W W W
E|-------------------------------------------
B|-------------0-----------------------------
G|-------5--------5-----5--------------------
D|--5/7-----7--------7--------5--------7-----
A|-------------------------3-----3--3-----3--
E|-------------------------------------------



E|-----------------------------------------------------------
B|-------------12--13----------------------------------------
G|-------5-------------12--14--------------------------------
D|--5/7-----7---------------------------5-----------7-----7--
A|-----------------------------3--3--3-----3--3--3-----3-----
E|-----------------------------------------------------------
http://www.guitartabcreator.com
Guitar Tab Creator is intended to store guitar tab created through the tool. It currently does not support in-line text editing. Any text you place in here will be lost. If you need to comment on your tab, please use the "Tab Notes" section located below.