Outlaw Bass Tab

(/) Slide Up  (\) Slide Down  (h) Hammer On  (p) Pull Off  (b) Bend (r) Release (v) Vibrato

***Everything but the verses i would like you to play exactly***

Intro:
E|-----------------------------------------------------------------------------
B|-----------------------------------------------------------------------------
G|-----------------------------------------------------------------------------
D|-----------------------------------------------------------------------------
A|-----5-5-5-2---2-5/7-7-7-7-5-2-2h5-2-----5-5-2-2-5/7-5-2-2h5-2---------------
E|-0-3---------5-----------------------0-3-----------------------5---3---2---0-

Verses:(I kinda dig the first two lines in the verses but you can do your own thing here)
E|-----------------------------------------------------------------------------
B|-----------------------------------------------------------------------------
G|-----------------------------------------------------------------------------
D|-----------------------------------------------------------------------------
A|-----5-2---2-5/7-5-2-2h5-2---2-5-5-2---2---5-2---2---------------------------
E|-0h3-----5-----------------5---------5---------5---5-3-2-2h3-2-5-3-2-2h3-2-0-

E|------------------------------------------------------------------------------------
B|------------------------------------------------------------------------------------
G|------------------------------------------------------------------------------------
D|------------------------------------------------------------------------------------
A|-----2-5/7---2h5-2---2---2h5-2---2-----------5--5-5-2-5-5-2---2-5-5/7-5-2-2h5p2-----
E|-3-5---------------5-----------5---5-3-0---3----------------5-------------------5-0-

E|----------------------------------------------------------
B|----------------------------------------------------------
G|----------------------------------------------------------
D|----------------------------------------------------------
A|----------------------2---2-----------5-5-2---2-5-5-5-2---
E|-3-5--2-3-2-0-2-3-2-5---5---5-3-2-0---------5-----------5-

Pre Chorus:
E|-----------------------------------------------------------
B|-----------------------------------------------------------
G|-----------------------------------------------------------
D|-----------------------------------------------------------
A|--7--7--7--7--7--7--9--9--9--9--9--9--9--9--9--9--9--9--9--
E|-----------------------------------------------------------

Chorus:
E|-------------------------------------------------------------------------------------
B|-------------------------------------------------------------------------------------
G|-------------------------------------------------------------------------------------
D|-------------------------------------------------------------------------------------
A|---------5-2---2-5-5-2---2---------------------5-2---2-5-5/7-5-2h5-2---2-------------
E|-0-0-0-3-----5---------5---5-3-3h5p3-3-0-0-0-3-----5-----------------5---5-3-3h5-3-0- x2

Fill after first chorus:
E|-------------------------------
B|-------------------------------
G|-------------------------------
D|-------------------------------
A|-----5-5-2---2-5/7-5-2h5-2---2-
E|-0-3-------5---------------5---

Solo Lead in:
E|-----------------------------------------------------------------------------
B|-----------------------------------------------------------------------------
G|-----------------------------------------------------------------------------
D|-----------------------------------------------------------------------------
A|-------------2-5-5/7-5-2-2-2-5/7-5-2-2-2-----------2---2-2-2-2-5/7-7-7-7-7-7-
E|-0---0h3-3-5-----------------------------0---0h3-5---5----------------------- x4 first x2 second

Solo:
E|----------------------------------------------------------------------
B|----------------------------------------------------------------------
G|----------------------------------------------------------------------
D|----------------------------------------------------------------------
A|-----------------5--5--5-----2-------------------5--5--5--5--5--5--5--
E|--0--0--0--3--3-----------5-------0--0--0--3--3----------------------- x4 then repeat once

Big Finish:
E|--------------------------------------------------------------------
B|--------------------------------------------------------------------
G|--------------------------------------------------------------------
D|--------------------------------------------------------------------
A|-----------------2--5--5/7--5--2--2h5--2-----2----------------------
E|--0------0h3--5---------------------------5-----5--3--3h5--3--2--0--
http://www.guitartabcreator.com
Guitar Tab Creator is intended to store guitar tab created through the tool. It currently does not support in-line text editing. Any text you place in here will be lost. If you need to comment on your tab, please use the "Tab Notes" section located below.