LitreOfBleach

(/) Slide Up  (\) Slide Down  (h) Hammer On  (p) Pull Off  (b) Bend (r) Release (v) Vibrato


E|--7----7--7----7----7--7----7----7--7----7----7--7----7----7--7----7----7--7----7----7--7-------
B|--7----7--7----7----7--7----7----7--7----7----7--7----7----7--7----7----7--7----7----7--7-------
G|------------------------------------------------------------------------------------------------
D|------------------------------------------------------------------------------------------------
A|------------------------------------------------------------------------------------------------
E|------------------------------------------------------------------------------------------------



E|--7----7--7----10----10--10----10----10--10----10----10--10----10----10--8--
B|--7----7--7----10----10--10----10----10--10----10----10--10----10----10--8--
G|----------------------------------------------------------------------------
D|----------------------------------------------------------------------------
A|----------------------------------------------------------------------------
E|----------------------------------------------------------------------------



E|-------------------------
B|-------------------------
G|--4--7--9--7--9----------
D|--4--7--9--7--9----------
A|--2--5--7--5--7----------
E|-------------------------
http://www.guitartabcreator.com
Guitar Tab Creator is intended to store guitar tab created through the tool. It currently does not support in-line text editing. Any text you place in here will be lost. If you need to comment on your tab, please use the "Tab Notes" section located below.