Sutekina Mirai by Miyavi

(/) Slide Up  (\) Slide Down  (h) Hammer On  (p) Pull Off  (b) Bend (r) Release (v) Vibrato

Tuned to DGCFAD.
E|--------0-----------0-----------0-------------4p2p0-----
B|-----------4-----------4-----------4-----------------2--
G|-----4-----------4-----------4-------------2------------
D|--4-----------5-----------6-----------6/4---------------
A|--------------------------------------------------------
E|--------------------------------------------------------



E|--------0-----0-----------------0--------0-----
B|-----0-----0--0--3p2p0-------------4--------4--
G|-----------------------------4--------4--------
D|--2-----------2---------2/4--------------------
A|-----------------------------------------------
E|-----------------------------------------------

Some of the chords I think he uses, roughly in order

C7/9 Bm E7/9 A F# A
E|----------------------------------
B|----5----5----9--------------4----
G|----5----6----9----8---------4----
D|----4----6----8----9----6----4----
A|----5----4----9----9----6---------
E|--------------0----7----4---------
http://www.guitartabcreator.com
Guitar Tab Creator is intended to store guitar tab created through the tool. It currently does not support in-line text editing. Any text you place in here will be lost. If you need to comment on your tab, please use the "Tab Notes" section located below.