song

(/) Slide Up  (\) Slide Down  (h) Hammer On  (p) Pull Off  (b) Bend (r) Release (v) Vibrato




Key : F#
Chords F# A# G# B E C#


intro
E|-----------------|-----------------|-----------------|--------------------|-----------------|
B|-----------------|-----------------|-----------------|--------------------|-----------------|
G|-----------------|-----------------|-----------------|--------------------|-----------------|
D|-----------------|-----------------|-----------------|--------------------|-----------------|
A|-----8-----8---8-|-----6-----6---6-|-----8-----8---8-|-----10-----10---10-|-----6-----6---6-|
E|-6-6---6-6---6---|-4-4---4-4---4---|-6-6---6-6---6---|-8-8----8-8----8----|-4-4---4-4---4---|

chorus *strum close as close to bridge as possible fpr last part!
F# A# G# F#
E|---------------------------| |-------------------|
B|---------------------------| |-------------------|
G|---------------------------|x3|-------------------|
D|-4--4--4-4-8-8-8-8-6-6-6-6-| |-4---4-4-4-4-4-4-4-|
A|-4--4--4-4-8-8-8-8-6-6-6-6-| |-4---4-4-4-4-4-4-4-|
E|-2--2--2-2-6-6-6-6-4-4-4-4-| |-2---2-2-2-2-2-2-2-|

verse
B F# D# E
E|-------------------------------------------------------------|
B|-------------------------------------------------------------|
G|-4-4-4-4-4-4-4-4-11-11-11-11-8-8-8-8-9-9-9-9-6-6-6-6-6-6-6-6-|x4
D|-4-4-4-4-4-4-4-4-11-11-11-11-8-8-8-8-9-9-9-9-6-6-6-6-6-6-6-6-|
A|-2-2-2-2-2-2-2-2-9--9--9--9--6-6-6-6-7-7-7-7-4-4-4-4-4-4-4-4-|
E|-------------------------------------------------------------|

solo bend down
E|-------------------|--------------|-------------------|----------------|-------------------|
B|-------------------|--------------|-------------------|----------------|-------------------|
G|-------------11-13-|--------------|-------------11-13-|-----------11b^-|-------------11-13-|
D|-------11-13-------|-13---11---10-|-------11-13-------|-13---11--------|-------11-13-------|
A|-11-13-------------|--------------|-11-13-------------|----------------|-11-13-------------|
E|-------------------|--------------|-------------------|----------------|-------------------|

bend down
E|-------------------|-------------------|----------------------|
B|-------------------|-------------------|----------------------|
G|-------------------|-------------11-13-|-----------12b^-------|
D|-13---12---11---10-|-------11-13-------|-13---12----------11v-|
A|-------------------|-11-13-------------|----------------------|
E|-------------------|-------------------|----------------------|

outro stop last chord quickly
B D# C# B
E|---------------------------| |-------------------|
B|---------------------------| |-------------------|
G|-4--4--4-4-8-8-8-8-6-6-6-6-|x2|-4---4-4-4-4-4-4-4-|
D|-4--4--4-4-8-8-8-8-6-6-6-6-| |-4---4-4-4-4-4-4-4-|
A|-2--2--2-2-6-6-6-6-4-4-4-4-| |-2---2-2-2-2-2-2-2-|
E|---------------------------| |-------------------|

inrto, chorus, verse, chorus, verse, chorus, solo, chorus, outro



http://www.guitartabcreator.com
Guitar Tab Creator is intended to store guitar tab created through the tool. It currently does not support in-line text editing. Any text you place in here will be lost. If you need to comment on your tab, please use the "Tab Notes" section located below.