Powerful Red Hat - One Piece - Solo - Guitar Tab

(/) Slide Up  (\) Slide Down  (h) Hammer On  (p) Pull Off  (b) Bend (r) Release (v) Vibrato


E|--15--12--13--15--10--12--13--10-----------8-----------6--------------------------------
B|----------------------------------6--5--6-----4--3--4-----6--5--6--5--------------------
G|----------------------------------------------------------------------5--3-----------5--
D|----------------------------------------------------------------------------5--3--1-----
A|----------------------------------------------------------------------------------------
E|----------------------------------------------------------------------------------------



E|------13------15------16--15--13--16--15--16--15--
B|--13------13------13------------------------------
G|--------------------------------------------------
D|--------------------------------------------------
A|--------------------------------------------------
E|--------------------------------------------------



E|--13--12--13--12--8--10--8--10--8-------------
B|-----------------------------------10--8------
G|------------------------------------------10--
D|----------------------------------------------
A|----------------------------------------------
E|----------------------------------------------



E|--------6--10--8--8--11--10--8--11--10--8--11--10--8--4--4--4--4--4--4--4--4--16--16--16--16--16--16--16--16--
B|--8--8--------------------------------------------------------------------------------------------------------
G|--------------------------------------------------------------------------------------------------------------
D|--------------------------------------------------------------------------------------------------------------
A|--------------------------------------------------------------------------------------------------------------
E|--------------------------------------------------------------------------------------------------------------
http://www.guitartabcreator.com
Guitar Tab Creator is intended to store guitar tab created through the tool. It currently does not support in-line text editing. Any text you place in here will be lost. If you need to comment on your tab, please use the "Tab Notes" section located below.